Can't Help Falling in Love

low G mit Tabs

Elvis Presley, 1961

{title: Can't Help Falling in Love}
{st: low G mit Tabs}
{artist: Elvis Presley, 1961}
{key: C}
{define: Am frets 0 4 5 3 fingers 0 0 0 0}

#Ingrid Michaelson: https://www.youtube.com/watch?v=5sQeQC4hT10
#Michael Buble: https://www.youtube.com/watch?v=R6cdOeUWOEA&feature=kp
#Elvis: https://www.youtube.com/watch?v=5V430M59Yn8
#Key of C

{comment: Intro}
[C] [G] [C] [G]

{start_of_tab}
A|----------------------------------|
E|---3-----0-1-0----------------------|
C|-0---0-2-------2------------------|
G|----------------------------------|
{end_of_tab}
[C]Wise [Em]men [Am]say only [F]fools [C]rush [G]in 
{start_of_tab}
A|----------------------------------|
E|-----------0-1-0--------------------|
C|-------0-2-------2-0--------------|
G|-0-2-4----------------------------|
{end_of_tab}
But  [F]I   [G]can't [Am]help [F]falling in [C]love [G]with [C]you
[C]Shall [Em]I [Am]stay, would it [F]be [C]a [G]sin
If  [F]I   [G]can't [Am]help [F]falling in [C]love [G]with [C]you 

{comment: Bridge:}
{start_of_tab}
A|-----0-3-2----------|
E|-0-3--------------------------------|
C|----------------------------------|
G|----------------------------------|
{end_of_tab}
{start_of_chorus}
[Em]Like a river [B7]flows,
[Em]surely to the [B7]sea 
[Em]Darling so it [B7]goes,
{eoc}
{start_of_tab}
A|----------------------------------|
E|-3-3-0-3-0-1----------------------------|
C|----------------------------------|
G|----------------------------------|
{end_of_tab}
{start_of_chorus}
[Em]some things are [A7]meant to [Dm]be [G]
{end_of_chorus}
[C]Take [Em]my  [Am]hand, take my [F]whole [C]life [G]too 
For  [F]I   [G]can't [Am]help [F]falling in [C]love [G]with [C]you
{comment: Repeat Bridge}
[C]Take [Em]my  [Am]hand, take my [F]whole [C]life [G]too 
For  [F]I   [G]can't [Am]help [F]falling in [C]love [G]with [C]you
For  [F]I   [G]can't [Am]help [F]falling in [C]love [G]with [C]you 

Automatisch formatieren

Im Song wurden keine Akkorde gefunden, vielleicht ist es kein ChordPro Format. Hier ist eine konvertierte Version...

Nein danke

Griffe definieren

Schließen

    Über diese Seite & Dank...

    UkeGeeks-NG is a fork of UkeGeeks.

    A simple ukulele songbook editor :)

    Original creator of the UkeGeeks project is Buzz Carter. He made the Scriptasaurus engine and the Song-a-matic editor, as well as the ugsphp site.

    UkeGeeks-NG contributors : BloodyBowlers, Louis-Coding.